песни под гитару с аккордами табами

Здесь вы наконец сможете скачать и прослушать онлайн 80665 С табами: - Jane Air в аудио. Также здесь вы можете прочитать текст песни и подобрать аккорды самостоятельно. Для некоторых композиций удобнее будет использовать табулатуру пл-современному табы.

Композитор: Jane Air

Песня: 80665 (С табами:)

Продолжительность mp3: 02:13

Опубликовано: 2017-01-26

Текст просмотрен: 355

Рейтинг: 0

Скачать



Другие песни исполнителя Jane Air
Текст песни:

Песня без слов, но какой кайф м/-

Кому интересно вот табы:
e------------------------------------
b------------------------------------
g-x-x-9-x-9-x-x-9-x-x-9-x-x-x-9-
d-x-x-9-x-9-x-x-9-x-x-9-x-x-x-9- (x6)
a-x-x-7-x-7-x-x-7-x-x-7-x-x-x-7-
e------------------------------------

e----
b----
g-12-
d-x-- (x32)
a-10-
e----

e------------------------------------
b------------------------------------
g-x-x-9-x-9-x-x-9-x-x-9-x-x-x-9-
d-x-x-9-x-9-x-x-9-x-x-9-x-x-x-9- (x2)
a-x-x-7-x-7-x-x-7-x-x-7-x-x-x-7-
e------------------------------------

e--------------------------------------------------
b--------------------------------------------------
g-12-12-12-12-12-12-12-12--14-14-14-14-14-14-14-14-
d-x--x--x--x--x--x--x--x---x--x--x--x--x--x--x--x--
a-10-10-10-10-10-10-10-10--12-12-12-12-12-12-12-12-
e--------------------------------------------------

e------------------------------------
b------------------------------------
g-x-x-9-x-9-x-x-9-x-x-9-x-x-x-9-
d-x-x-9-x-9-x-x-9-x-x-9-x-x-x-9- (x4)
a-x-x-7-x-7-x-x-7-x-x-7-x-x-x-7-
e------------------------------------

e--------------------------------------------------
b--------------------------------------------------
g-12-12-12-12-12-12-12-12--14-14-14-14-14-14-14-14-
d-x--x--x--x--x--x--x--x---x--x--x--x--x--x--x--x--
a-10-10-10-10-10-10-10-10--12-12-12-12-12-12-12-12-
e--------------------------------------------------

e---------------------------
b---------------------------
g---------------------------
d-9-5---7-4---9-5----------- (x6)
a-----7-----5-----7--777777-
e---------------------------
. . . . . .

e---------------------------
b---------------------------
g---------------------------
d-9-5---7-4---9-5----------- (x2)
a-----7-----5-----7--777777-
e---------------------------
. . . . . . . . .

e--------------------------------------------------
b--------------------------------------------------
g-12-12-12-12-12-12-12-12--14-14-14-14-14-14-14-14-
d-x--x--x--x--x--x--x--x---x--x--x--x--x--x--x--x--
a-10-10-10-10-10-10-10-10--12-12-12-12-12-12-12-12-
e--------------------------------------------------

e------------------------------------
b------------------------------------
g-x-x-9-x-9-x-x-9-x-x-9-x-x-x-9-
d-x-x-9-x-9-x-x-9-x-x-9-x-x-x-9- (x6)
a-x-x-7-x-7-x-x-7-x-x-7-x-x-x-7-
e------------------------------------

e-----------------
b-----------------
g-----------------
d-9-0-5-0-7-0-4-0- (x4)
a-----------------
e-----------------

e----------------------------
b----------------------------
g-------------------------4*-
d-5----4------5----4---------
a---7----5------7----5-------
e-----7----5------7----5-----

e------------------------------
b------------------------------
g-------------------------5b3*- <= it's a finger-harmonic
d-5-2---4-0---5-2---4-0--------
a-----2-----0-----2-----0------
e------------------------------

e------------------------------------
b----------------------------------0-
g------------------------------0h2---
d-5-2---4-0---5-2---4-0----0h2-------
a-----2-----0-----2-----0------------
e------------------------------------

e----------------- e--------------
b----------------- b--------------
g----------------- g---------4b2*- <= it's a finger-harmonic
d-9-0-5-0-7-0-4-0- (x3)

jane air
'9.80665'
pere-lachaise. l'ubov' i nemnogo smerti
tabbed by: i'm not ok! (iamnotok@inbox.ru)
tuning: EADGBe

Видео
JANE AIR — 2004 ГОД. 2012 EDITION (Караоке версия)
Комментарии (0)
Добавить комментарий



Каптча:

Содержание
Стоит прочитать
Новые сообщения
2014-08-14 elena 22 4247
Слышала что там пела Юлия Михальчик. Вот интересно, может кто-то ещё из известных теперь людей начинали петь именно в этом хоре?...
2014-08-12 anastasi 29 8898
Родилось предложение организовать выезд на природу для всех прошлых и настоящих хористов. Этакий хоровой week-end.Участвовать могут все желающие. Кто "за", кто "против".Какие пожелания по поводу организации данного мероприятия -...
2014-08-07 evgenij 4 1860
В конце апреля 2009 года Челябинской городской Думой принято решение «об оптимизации отрасли культуры» и о «реорганизации» муниципального театра «Манекен». В мае это привело к сокращению финансирования театра на 25% (в среднем в культуре –...