на гитаре таб

Здесь вы наконец сможете скачать и прослушать онлайн Обратный отсчет таб - Дельфин в аудио. Также здесь вы можете прочитать текст песни и подобрать аккорды самостоятельно. Для некоторых композиций удобнее будет использовать табулатуру пл-современному табы.

Композитор: Дельфин

Песня: Обратный отсчет таб

Продолжительность mp3: 03:59

Опубликовано: 2014-07-25

Текст просмотрен: 396

Рейтинг: 0

Скачать



Другие песни исполнителя Дельфин
Текст песни:

Еm
1 ---------0-------
2 -----0--------0--
3 ---0------- 0---0
4 ------------------
5 ------------------
6 -0----------------
Все будет не так
Hm
1 ---------2------
2 ------3------3--
3 ----4----- 4---4
4 -----------------
5 -2---------------
6 -----------------
Как хотелось бы мне
Em(также)
И легкий озноб
Hm(также)
Пpобежит по спине,
С
1 ---------0------
2 ------1------1--
3 ----0----- 0---0
4 -----------------
5 -3---------------
6 -----------------
Когда ты шагнешь
А
1 ---------0------
2 ------2------2--
3 ----2----- 2---2
4 -----------------
5 -0---------------
6 -----------------
За открытую дверь
C(также)
Пополнив собой
F
1 ---------------2-
2 ------------2----
3 ---------3-------
4 -----4-----------
5 -----------------
6 -2---------------
Список потерь

Все будет не так,
Как хотелось бы мне
И легкий озноб
Пробежит по спине,
Когда ты шагнешь
За открытую дверь,
Пополнив собой
Список потерь

Как будто что-то исчезло
И уже не вернуть
И сердце спешит
Разорвать мою грудь
И хочется крикнуть,
Взорвав пустоту,
Принадлежащую
Мне одному

Видео
Доза тепла - Игрушки (Мишины Дельфины cover) @ Захват
Комментарии (0)
Добавить комментарий



Каптча:

Содержание
Новые сообщения
2014-08-14 elena 22 4124
Слышала что там пела Юлия Михальчик. Вот интересно, может кто-то ещё из известных теперь людей начинали петь именно в этом хоре?...
2014-08-12 anastasi 29 8555
Родилось предложение организовать выезд на природу для всех прошлых и настоящих хористов. Этакий хоровой week-end.Участвовать могут все желающие. Кто "за", кто "против".Какие пожелания по поводу организации данного мероприятия -...
2014-08-07 evgenij 4 1798
В конце апреля 2009 года Челябинской городской Думой принято решение «об оптимизации отрасли культуры» и о «реорганизации» муниципального театра «Манекен». В мае это привело к сокращению финансирования театра на 25% (в среднем в культуре –...